CELLO SONG
     
Tuning EADF#BE  Capo 6th fret
     

Intro (the 02s and 01s are all hammered on)
     
|----------------|      |----------------| 
|----------------|      |----------------| 
|----------------|      |01----01---1----| 
|02-22-02-22-----| (x2) |---2-----02--2--| (x2) 
|0-0-0-0-0-0-0-0-|      |0-0-0-0-0-0-0-0-| 
|----------------|      |----------------|
     
|----------------|--------------|0---------------|0---------------| 
|02--------------|02------------|---02-----------|---02-----------| 
|---1--01---1----|---1--01---1--|-----1-01----1--|-----1-01----1--| 
|---------02--2--|---------02---|---------2-02---|---------2-02--0| 
|0-0-0-0-0-0-0-0-|0-0-0-0-0-0-0-|0-0-0-0-0-0-0-0-|0-0-0-0-0-0-0-0-| 
|----------------|--------------|----------------|----------------|
                   (short bar)
     
Main Riff

|----------------|0---------------|
|--------0-------|--------0-------|
|-----0-------0--|-----0-------0--|
|---2-------2----|---2-------2----|
|--2---2---2---2-|--2---2---2---2-|
|0---0---0---0---|0---0---0---0---|


Verse
     
|----------------|0------------0--|     |--------0-------| 
|--------0-------|-------0--------|     |-----2-------2--| 
|-----0-------0--|-----0---0------|     |---3-------3----| 
|---2-------2----|---2-------2----| and |--2---2---2---2-| (end line with main riff)
|--2---2---2---2-|--2---2---2---2-|     |0---0---0---0---| 
|0---0---0---0---|0---0---0---0---|     |----------------|
 ("strange face...")                      ("so pale...")

rpt that line, then:
    
|--------0-------|----------------| 
|-----2-------2--|--------0-------|
|---3-------3----|-----0-------0--|  (three times; second time extend a la main riff)
|--2---2---2---2-|---2-------2----|
|0---0---0---0---|--2---2---2---2-|
|----------------|0---0---0---0---|
     ("for the dreams that came")


|----------------|----------------|
|----------------|----------------|
|-----2--3----3--|-3---3---2---0--|   (and go to main riff under cello)
|---0-------0---0|---0---0---0---0|
|--0---0---0---0-|--0---0---0---0-|
|2---2---2---2---|2---2---2---2---|
              ("where...          (spring is sprung)")
     



     
Tabbed by Chris Healey