HAZEY JANE I

Tuning CGCFCE capo 2
     


This gets a bit complicated in its structure, so I've given some 
of the bars letters to identify them
     
INTRO
     
--------|----------0-----|------0---------|----------0-----|3-----0- 
--------|----0-----0-----|0-----0---------|----0-----0-----|2-----0- 
02------|----0-----0-----|0-----0-------0-|(2)-2-----2-----|0-----2- 
--02----|----2--2-----2--|2--2--------02--|----0--0-----0--|---0---- 
----02--|--2---2-----2---|--2-------02----|--0---0-----0---|--0----- 
------0-|2-------2-----2-|----2---02------|0-------0-----0-|----0---
     
(rpt above, then)
               (A)
--------|1-0-------------|----0-----------|3-----0-------1-| 
----0---|0-----0---0-----|------0---------|--2-------0-----| 
----2---|------0---0-----|02------2-------|--2-------2---4-| 
-0--0---|----0---0---0---|--0-------0-----|0-----0-------0-| 
0-----2-|--------------2-|0-----------0---|--0-------0-----| 
--0-----|----------------|--------------0-|----0-------0---|
     
                                         (B)
|----1---0-0-----|1-0-------------|------------0---|----------------| 
|--0-------0-----|0-----0---0---0-|------0---------|--0---0---0---0-| 
|----4---2-------|------0---0---0-|----02----2-----|2-----0---0---0-| 
|----0---0---0---|----0---0---0---|---0----0-----0-|----0---2---2---| 
|--------------2-|----------------|--0-------------|------2---1---0-| 
|----------------|----------------|0---------------|----------------|
     
|--------------0-|----------------|
|--------0-------|----0-----------|
|----0-2-----2---|--2---2---------|
|---0------0-----|0-------0---0---|
|--0-------------|----------0-----|
|0---------------|--------------0-|
     
VERSE (at last)
(these are taken from the demo version on the bootlegs, where the guitar
part can be heard more clearly. they seem as far as i can tell to match
the album version very well)

|0-----0---------|0-----0---------|0-----0---------|0-----0---------|
|0-----0---------|0-----0---------|0-----0---------|0-----0---------|
|4-----4---------|4-----4---------|0---------------|0---------------|
|--0-----0---0---|--0-----0---0---|--4-----4---4---|--4-----4---0---|
|0-----0---0-----|0-----0---0-----|0-----0---0-----|0-----0---0-----|
|----0---------0-|----0---------0-|----0---------0-|----0---------0-|

|1-----1---------|1-----1-----1---|0-----0---------|0-----0-----0---|
|0-----0---------|0-----0-----0---|0-----0---------|0-----0-----0---|
|4-----4---------|4-----4-----4---|2-----2---------|2-----2-----2---|
|---0----0---0---|---0-----0----0-|--0-----0---0---|---0-----0------|
|--0---0---0-----|--0-----0-----0-|----0-----0-----|--0-----0-------|
|0---0---------0-|----0-----0-----|0-----0-------0-|----0-----0---0-|

play it all twice, with the last bar becoming:

|0-----0-----0---|
|0-----0-----0---|
|2-----2-----0---|
|---0-----0----0-|
|--0-----0-------|
|----0-----0-----|

     
"Hey slow Jane, make sense.."
                                         (C)               (D)
|----------0-----|------0---------|----------0-----|3-----0---------|
|----0-----0-----|0-----0-----0---|----0-----0-----|2-----0-----0---|
|----0-----0-----|0-----0-----0---|----2-----2-----|2-----2-----0---|
|----2--2-----2--|2--2-----2----2-|----0--0-----0--|---0-----0----0-|
|--2---2-----2---|--2-----2-------|0-----0-----0---|--0-----0-------|
|2-------2-----2-|----2-----2-----|--0-----0-----0-|----0-----0-----|

     
"Slow slow Jane, cross the fence"
                                         (E)               (F)
|----------0-----|------0---------|------------0---|3-----0---------| 
|----0-----0-----|0-----0-----0---|------0---------|--2-----0-------| 
|----0-----0-----|0-----0-----0---|----02----2-----|----0-----2-----| 
|----2--2-----2--|2--2-----2----2-|---0----0-----0-|------------0---| 
|--2---2-----2---|--2-----2-------|--0-------------|--------------2-| 
|2-------2-----2-|----2-----2-----|0---------------|0-----0---------|
     
rpt intro from bar A, then next verse.
(the "slow slow jane we're on the move" bit in V2 has C and D 
again instead of E and F)
     
"Do it for you..." section
                                    h
|----------5-----|------5---------|----------5-----|------5---------|
|----5-----5-----|5-----5-----5---|----5-----5-----|5-----5-----5---|
|----7-----7-----|7-----7-----5---|----5-----5-----|5-----5-----5---|
|----5--5-----5--|5--5-----5--5-7-|----5--5-----5--|5--5-----5--5-7-|
|--5---5-----5---|--5-----5---5---|57----7-----7---|--7-----7---5---|
|5-------5-----5-|----5-----5-----|--5-----5-----5-|----5-----5-----|

"Sure that you'd..."

|----------5-----|------5---------|----------3-----|------3---------|
|----5-----5-----|5-----5-----5---|----3-----3-----|3-----3-----3---|
|----7-----7-----|7-----7-----5---|----5-----5-----|5-----5-----5---|
|----5--5-----5--|5--5-----5--5---|----3--3-----3--|3--3-----3--3-0-|
|5-----5-----5---|--5-----5-----0-|--3---3-----3---|--3-----3-------|
|--5-----5-----5-|----5-----5-----|3-------3-----3-|----3-----3-----|

"So try to be true.." - repeat "Do it for you" line, but with
0 instead of 7 as the final passing note of last bar

"Even if it's only..."

|----------3-----|------3---------|----------3-----|------3---------|
|----3-----3-----|3-----3-----3---|----3-----3-----|3-----3-----3---|
|----3-----3-----|3-----3-----3---|----5-----5-----|5-----5-----5---|
|----3--3-----3--|3--3-----3--3-5-|----3--3-----3--|3--3-----3--3---|
|--5---5-----5---|--5-----5---3---|3-----3-----3---|--3-----3-----3-|
|3-------3-----3-|----3-----3-----|--3-----3-----3-|----3-----3-----|

(if this seems like too much detail, and it probably is, just play the
main picking pattern of the first two bars for the foll chords:
555755 / 575555 / 555755 / 333533 / 555755 / 575555 / 353333 / 333533)

     
rpt intro from bar B, then next verse.
     
"slow slow jane, fly on by" has up to bar E as in V1, then
     
----------------
--0-------------
2---2---02------ and 1st line of intro repeats to end
------0---02----
------------02--
--------------0-

Tabbed by Chris Healey