PINK MOON
     
Tuning CGCFCE capo 2nd fret (slightly sharp of concert)
     


This song involves a lot of strumming, so here are the 
tab positions used, with a rough guide to their timing.
A strong thumbnail helps emphasise the riff on upstrokes.
     
     
     "RIFF"               "CHORD"
     
|-----0----------|     |-----0----|
|-----0----0-----|     |-----0-0--|
|--02-2----0-0-0-|     |--02-2-2--|
|--0--0----2-0-0-|     |--0--0-0--|
|--0--0----0-2-0-|     |--0--0-0--|
|--0--0----0-0-2-|     |--0--0-0--|
     
     
  VERSE (keep top string quietest)
     
|--7--7----7--7--7-5--5----5--5--5-| 
|--7--9----7--9--7-5--7----5--7--5-| 
|--9--7----9--7--9-7--5----7--5--7-| 
|--7--7----7--7--7-5--5----5--5--5-| 
|--7--7----7--7--7-5--5----5--5--5-| 
|--7--7----7--7--7-5--5----5--5--5-|
     
     
"Pink Pink Pink Pink, Pink Moon"
     
|---------------------------------------------| 
|--0-----------------0------------------------| 
|--0-----------------0-----"RIFF"----"CHORD"--| 
|--2-----------------0------------------------| 
|--2-----------------02-----------------------| 
|--2-----------------0------------------------|
     
     
   PIANO BIT (guitar part of)
     
|--0--0-0-0-0------------------------0--| 
|--0--0-0-0-0--0---------------------0--| 
|--7--6-4-2-0--0--------0-0-0--0-0-0-02-| 
|--0--0-0-0-0--02-------0-0-0--0-0-0-0--| 
|--0--0-0-0-0--02-------5-5-45-2-0---0--| 
|--0--0-0-0-0--02-------0-0-0--0-0-5-0--|
     
     
Tabbed by Chris Healey