RIDER ON THE WHEEL
     
Tuning xGDGBD (the bottom string isn't really used but you might 
tune it to G if you can, for accidental hits / resonances - plus 
you can play Black Eyed Dog too!)
     


Intro: (only the top five strings are shown)
     
|9-------T-------|T----T--9-------|9-------T----T--|T----T--T----T--| 
|-8---8---T---T--|-X-------8---8--|-8---8---T------|-X-------X------| 
|---0---0---0---0|---T---0---0---0|---0---0---0---0|---T---E---E---0| 
|--0---0---0---0-|--0---0---0---0-|--0---0---0---0-|0-0---0-0-0---0-| 
|0-------0-------|0-------0-------|0-------0-------|----------------|
     
|9-------T-------|T-------9-------|T-------T----T--|9----8--9-------| 
|-8---8---T---T--|-X---X---8---8--|-T---T---X------|-8---7--8-------| 
|---0---0---0---0|---T---0---0---0|---0---0---E---0|---0---0----0---| 
|--0---0---0---0-|--0---0---0---0-|--0---0-0-0---0-|--0---0-------0-| 
|0-------0-------|0-------0-------|0---------------|0---------------|
     
key - X=10th fret, E=11th, T=12th.
(there are slight variations the second time this section occurs)
     
Verse Pattern:
     
|-----5-------7--|----------------|
|5-------7-------|--3--0--3--0----|
|-5-------5------|--2--0---2---0--|   (x3) 
|---5---7---7---7|--0--0-0-------0|
|5-5---5-5-5---5-|0---0-0-0-0-0-0-|
  * #
     
|----------------|----------------|
|1----0--1---3---|--3--0--3--0----|
|-0---0---0---0--|--2--0---2---0--|
|---2-0-2---0---4|--0--0---------0|
|3-3---3-3-0-5-5-|0---0-0-0-0-0-0-|
           ""

     
notes:
* - this 5 becomes a 7 on the 3rd line of the verse 
# - this 5 becomes a 7 on the 2nd line of the verse
" - the left hand comes off to move up the neck
(the slightly discordant bass notes in the penultimate bar shouldn't
 be played too loud)


Tabbed by Chris Healey

(thanks to Richard Arrigo for corrections to the penultimate 
bar in the verse)