WHICH WILL
     
Tuning BF#BEBD# no capo (like CGCFCE but lower)
     
This is an update of the original tab - i think it's correct now!


(note - the top string is generally very quiet)
(t is where i'd use the thumb to pick, h=hammer obviously)
   
Intro:
  h       h   h                     h       h   h    h
|----0------0---0|----0---0---0---|----0------0---0|--------0---0---| 
|----0------0---0|----0---0---0---|----0------0---0|--------0---0---| 
|----0------0---0|----2-2-2---2---|----0------0---0|02------2-2-2---| 
|--0---0---0---0-|----------0-----|--0---0---0---0-|--0-----------0-| 
|02------02--02--|0-------------0-|02------02--02--|----0-----------| 
|----------------|--0-------------|----------------|------0---------|
 t t   t t t t t  t t   t   t   t  t t   t t t t t  t t t t   t   t
  
|----0------0---0|----0---0---0---|----1-----1-----|----------0-----| 
|----0------0---0|----0---0---0---|----0-----0-----|----7-----7-----| 
|----0------0---0|----2-2-2---2---|----0-----0-----|----0-----0-----|
|--0---0---0---0-|----------0-----|----2--2--2--2--|----7--7--7--0--| 
|02------02--02--|0-------------0-|--2---2-----2-0-|--7---7-------0-| 
|----------------|--0-------------|02------2-------|7-------7---7---|
     
     
|?-------0-------|0---------------|
|-5-------0------|-5-------0------|
|---0-------0----|---0------------| and rpt bars 3,4 
|-----5-------5--|-----0-----2-2--|
|--5---5---5---5-|--5---0---2---2-|
|5-------5-------|5-------2-------|
     
(the ? could be a mishit - sounds like it might be caused by the finger
fretting the string below accidentally resting against the top string? but
then when this figure appears later in the song, he produces the very same
bonus high note again with extra harmonics... if it's deliberate, i certainly
can't reproduce it accurately.)


Verse:
     
Play bars 1 & 2 three times then bars 7 & 8 (omit the open top string in bar 8).
Repeat.
     
     
"I don't know, which will you love...."
     
|----------------|----------------|
|----5-----5-----|0-----5-----5---|
|----0-----0-----|0-----0-----0---|
|----5--5--5--5--|---5--5--5--5--0|
|--5---5-----5---|--5-----5-----5-|
|5-------5-----5-|5---5-----5-----|


     
Tabbed by Chris Healey